View unanswered posts | View active topics It is currently Fri Oct 20, 2017 12:42 pm



Reply to topic  [ 5 posts ] 
 Paul's sweep on Mr.Big's "Road to Ruin" 
Author Message
is the Siren's Eye
User avatar

Joined: Tue Jul 27, 2004 8:53 pm
Posts: 21
Post Paul's sweep on Mr.Big's "Road to Ruin"
Does anyone have an accurate tab for this sweep anywhere? I can't get that kind of low to high "whoomph" (for want of a better word) that he gets on that track. It almost sounds like a frequency sweep filter.


The man's a Legend.

_________________
日本語がわかりますか?


Wed Jul 28, 2004 9:26 pm
Profile
Dr. X
User avatar

Joined: Sun Nov 17, 2002 11:30 pm
Posts: 228
Location: 48 States
Post Re: Paul's sweep on Mr.Big's "Road to Ruin"
Pete_C wrote:
Does anyone have an accurate tab for this sweep anywhere? I can't get that kind of low to high "whoomph" (for want of a better word) that he gets on that track. It almost sounds like a frequency sweep filter.


The man's a Legend.


|---------------------11s12-19s21p16p12s9-12p11p9----9-12----------------|
|------------------12-----------------------------12--------11h12p11p9s8-|
|---------------13-------------------------------------------------------|
|-------9-13-14----------------------------------------------------------|
|----11------------------------------------------------------------------|
|-12---------------------------------------------------------------------|


Too bad that in the video there's a mic stand in the way.
PS: I got this from the powertab web site. & I hopes this formats well.


Wed Jul 28, 2004 11:37 pm
Profile
BOFH

Joined: Thu Aug 21, 2003 7:19 pm
Posts: 2220
Location: UK
Post Re: Paul's sweep on Mr.Big's "Road to Ruin"
ToneZone wrote:
I hopes this formats well.

Put it between CODE tags :wink:

Code:
|---------------------11s12-19s21p16p12s9-12p11p9----9-12----------------|
|------------------12-----------------------------12--------11h12p11p9s8-|
|---------------13-------------------------------------------------------|
|-------9-13-14----------------------------------------------------------|
|----11------------------------------------------------------------------|
|-12---------------------------------------------------------------------|

_________________
Eat a third of a Mars Bar a day.


Wed Jul 28, 2004 11:45 pm
Profile WWW
Dr. X
User avatar

Joined: Sun Nov 17, 2002 11:30 pm
Posts: 228
Location: 48 States
Post Re: Paul's sweep on Mr.Big's "Road to Ruin"
My bad...

Thanks BT!!!!!
BTW, I want to upload that PG clinic vid. However I can only do it at night, US time.

Let me know if thats still ok.


Thu Jul 29, 2004 1:22 am
Profile
Dr. X
User avatar

Joined: Sat Mar 15, 2003 1:11 pm
Posts: 212
Location: BRAZIL
Post 
I liked to say that this ARPEGGIO u can see in the INSTRUCTIONAL VIDEO (Guitar From Mars2-Rock), PG play this there...watch!
I love this arpeggio is crazy!

Rodrigo

_________________
E-mail: [email protected]
*The Good Music i like, and (CHRIST KING) is my idol.
Pablo Gilberto i respect and admire but, my TOP influence is God King of Universe!*

Ad Majorem Dei Gloriam
Signed: Rodrigo Salesi(São Paulo-Brazil)


Thu Jul 29, 2004 2:37 am
Profile ICQ YIM WWW
Display posts from previous:  Sort by  
Reply to topic   [ 5 posts ] 

Who is online

Users browsing this forum: No registered users and 3 guests


You cannot post new topics in this forum
You cannot reply to topics in this forum
You cannot edit your posts in this forum
You cannot delete your posts in this forum
You cannot post attachments in this forum

Search for:
Jump to:  
Powered by phpBB © 2000, 2002, 2005, 2007 phpBB Group.
Designed by ST Software for PTF.