View unanswered posts | View active topics It is currently Tue Oct 24, 2017 6:10 am



Reply to topic  [ 4 posts ] 
 scarified question 
Author Message
is evil...Evil Joe

Joined: Tue Sep 02, 2003 2:18 pm
Posts: 56
Location: Belgium
Post scarified question
i was looking through the tabs on the site and i downloaded the zip of all the scarified powertabs..
now.. there were 5 powertabs and 1 guitarpro tab
all different :) different from what i learned :-/
which is the most accurate?

ive always played it like this:
Code:
----------------------------------------------------------------
----------------------------------------------------------------
--------------------------------------------------------3-5----
------------------------------------------------3-5-6----------
---------------------1-3--3----------3-4-6-----------------
1-1-1-1-1-1-1-1-3-4-------1--1-4-6-------------------------

or something


Mon Apr 12, 2004 9:14 am
Profile WWW
Dr. X
User avatar

Joined: Wed Mar 10, 2004 10:59 pm
Posts: 124
Location: Los Angeles
Post 
if you're talking about the main riff, it actually starts on the 2nd fret, since racer-x tuned down a half-step on the "Second Heat" album. Other than that, your notes seem to be correct, although i play the scale a little differently (note the jump to a major pattern starting on the 5th fret).

-------------------------------------------------------------------------------
-------------------------------------------------------------------------------
-----------------------------------------------------------------------6---
--------------------------------------------------------------6-7-9-----
--------------------------------2-4---4------------5-7-9-------------
-2-2-2-2-2-2-2-2-2-2-4-5--------2--2-5-7-9--------------------

_________________
"You can take the man out of the 80's, but you can't take the 80's out of the man." - Paul Gilbert

Image


Mon Apr 12, 2004 3:11 pm
Profile WWW
Superhero
User avatar

Joined: Sun Nov 24, 2002 8:51 pm
Posts: 1360
Location: away from here
Post 
the tab in young guitar says:
---------------------------
---------------------------
---------------------------
---------------------------
----------------------4-----
-2-2-2-2--/-22457---2-

on video paul and bruce always do that weird (frets 2, move hand up to 4)hand shift! :idea: i play it as economically as poss.

-------------------2-4--
--2222-/2-2-4-5------2
take your pick...

_________________
i am the thread killer.








old fan since 1986.
see ya


Last edited by Mr MUTTLEY! on Wed Apr 14, 2004 3:07 pm, edited 1 time in total.



Tue Apr 13, 2004 5:20 pm
Profile
Dr. X
User avatar

Joined: Wed Apr 14, 2004 12:07 am
Posts: 102
Post 
The Young guitar tab is right IMO because the important thing is the rhythm. Remember Paul's first lick on his first vid, where you cross the string with the up pick? Well on that spot in Scarified the rhythm changes to triplets and that fingering is the most economical for the RIGHT hand. Of course you can do it the other way but it is easier to keep the triplets tight with the drums if you shift up on that spot. Man that is a great lick!

Richard

_________________
What do you do when you see an endangered animal eating an endangered plant?


Wed Apr 14, 2004 3:07 am
Profile
Display posts from previous:  Sort by  
Reply to topic   [ 4 posts ] 

Who is online

Users browsing this forum: Bing [Bot] and 11 guests


You cannot post new topics in this forum
You cannot reply to topics in this forum
You cannot edit your posts in this forum
You cannot delete your posts in this forum
You cannot post attachments in this forum

Search for:
Jump to:  
Powered by phpBB © 2000, 2002, 2005, 2007 phpBB Group.
Designed by ST Software for PTF.