View unanswered posts | View active topics It is currently Sun Oct 22, 2017 9:15 pm



Reply to topic  [ 5 posts ] 
 final guitar solo in "Give in to me" by Slash (MJ) 
Author Message
is evil...Evil Joe

Joined: Fri Apr 02, 2010 2:07 pm
Posts: 57
Location: Italy
Post final guitar solo in "Give in to me" by Slash (MJ)
Hey to everybody,
somebody got tabs for the final fast scale run in the ending solo of Michael Jackson's
"Give in to me" (Slash on guitar)? I found some in the internet, but they're not correct I guess.
That fast ascending run just sounds so cool, it's not even that fast, but the accenting
gives it that tone I love.
Thanx for any help!
Dino


Wed Mar 21, 2012 9:57 am
Profile
Search Button God!
User avatar

Joined: Fri Apr 15, 2005 10:05 pm
Posts: 5105
Location: Mailbag Of Doom
Post Re: final guitar solo in "Give in to me" by Slash (MJ)
Here, tabbed just for you. You might want to figure out a better fingering because this one gets stupid at the end ;P

Code:
E||----------------------------------|------------------------------------|
B||----------------------------------|----------------------------------7-|
G||----------------------------------|------4-5---4-5-7-4-5-4---4-5-7-9---|
D||----------------4-5---5-7-4-5---4-|--5-7-----7-------------7-----------|
A||--2-3---2-3-5-7-----7---------7---|------------------------------------|
E||------5---------------------------|------------------------------------|


                                                   
--------------------------------------------------|
--------------10-12----10-12-13-15-13-15-13-12----|
--9-7-9-11-12-------12-------------------------14-|
--------------------------------------------------|
--------------------------------------------------|
--------------------------------------------------|


                                   
---------------------------------||
--13--12-13-12----12-15----------||
---------------14----14b---------||
---------------------------------||
---------------------------------||
---------------------------------||

_________________
Image


Wed Mar 21, 2012 2:42 pm
Profile
is evil...Evil Joe

Joined: Fri Apr 02, 2010 2:07 pm
Posts: 57
Location: Italy
Post Re: final guitar solo in "Give in to me" by Slash (MJ)
hey LAMER,
thank You very very very much! That seems much closer to the original.. how did You do that,man?
Do You have programs to transcribe that?
Thanx again really!
Dino


Thu Mar 22, 2012 7:58 am
Profile
Search Button God!
User avatar

Joined: Fri Apr 15, 2005 10:05 pm
Posts: 5105
Location: Mailbag Of Doom
Post Re: final guitar solo in "Give in to me" by Slash (MJ)
dino1978 wrote:
That seems much closer to the original..


It's perfect dammit! :evil:




(I'm 99,9% certain :P)


dino1978 wrote:
how did You do that,man?
Do You have programs to transcribe that?


Transcribe to slow down the track and my ears to pick out the notes. :)

_________________
Image


Thu Mar 22, 2012 10:05 am
Profile
is evil...Evil Joe

Joined: Fri Apr 02, 2010 2:07 pm
Posts: 57
Location: Italy
Post Re: final guitar solo in "Give in to me" by Slash (MJ)
well, Lamer, You did a great job, thanx a lot, really!!!
I'll try to throw in some legato and get it up to speed :-)


Thu Mar 22, 2012 10:42 am
Profile
Display posts from previous:  Sort by  
Reply to topic   [ 5 posts ] 

Who is online

Users browsing this forum: No registered users and 5 guests


You cannot post new topics in this forum
You cannot reply to topics in this forum
You cannot edit your posts in this forum
You cannot delete your posts in this forum
You cannot post attachments in this forum

Search for:
Jump to:  
cron
Powered by phpBB © 2000, 2002, 2005, 2007 phpBB Group.
Designed by ST Software for PTF.